ISO-10303-21;
HEADER;
FILE_DESCRIPTION (( 'STEP AP203' ),
    '1' );
FILE_NAME ('QM-AAHWP-20-450-650-M.STEP',
    '2021-01-05T02:33:27',
    ( '' ),
    ( '' ),
    'SwSTEP 2.0',
    'SolidWorks 2020',
    '' );
FILE_SCHEMA (( 'CONFIG_CONTROL_DESIGN' ));
ENDSEC;

DATA;
#1 = DESIGN_CONTEXT ( 'detailed design', #207, 'design' ) ;
#2 = CARTESIAN_POINT ( 'NONE',  ( -3.000000000000000000, 1.224646799147353256E-15, -10.00000000000000000 ) ) ;
#3 = APPLICATION_CONTEXT ( 'configuration controlled 3d designs of mechanical parts and assemblies' ) ;
#4 = PLANE ( 'NONE',  #57 ) ;
#5 = DIRECTION ( 'NONE',  ( 1.000000000000000000, 0.000000000000000000, 0.000000000000000000 ) ) ;
#6 = DIRECTION ( 'NONE',  ( -1.000000000000000000, -0.000000000000000000, -0.000000000000000000 ) ) ;
#7 = PRODUCT ( 'QM-AAHWP-20-450-650-M', 'QM-AAHWP-20-450-650-M', '', ( #22 ) ) ;
#8 = ORIENTED_EDGE ( 'NONE', *, *, #280, .T. ) ;
#9 = DIRECTION ( 'NONE',  ( -1.000000000000000000, -0.000000000000000000, -0.000000000000000000 ) ) ;
#10 = DIRECTION ( 'NONE',  ( 0.000000000000000000, 0.000000000000000000, 1.000000000000000000 ) ) ;
#11 = CIRCLE ( 'NONE', #77, 10.00000000000000000 ) ;
#12 = ORIENTED_EDGE ( 'NONE', *, *, #126, .T. ) ;
#13 = PERSON_AND_ORGANIZATION_ROLE ( 'creator' ) ;
#14 = ORIENTED_EDGE ( 'NONE', *, *, #137, .T. ) ;
#15 = DIRECTION ( 'NONE',  ( 0.000000000000000000, 0.000000000000000000, -1.000000000000000000 ) ) ;
#16 = LOCAL_TIME ( 10, 33, 27.00000000000000000, #24 ) ;
#17 = ORIENTED_EDGE ( 'NONE', *, *, #104, .F. ) ;
#18 = CARTESIAN_POINT ( 'NONE',  ( -1.614212418857619014, 0.000000000000000000, 0.000000000000000000 ) ) ;
#19 = AXIS2_PLACEMENT_3D ( 'NONE', #322, #296, #64 ) ;
#20 = APPLICATION_PROTOCOL_DEFINITION ( 'international standard', 'config_control_design', 1994, #207 ) ;
#21 = ORIENTED_EDGE ( 'NONE', *, *, #297, .F. ) ;
#22 = MECHANICAL_CONTEXT ( 'NONE', #3, 'mechanical' ) ;
#23 = CIRCLE ( 'NONE', #162, 10.00000000000000000 ) ;
#24 = COORDINATED_UNIVERSAL_TIME_OFFSET ( 8, 0, .AHEAD. ) ;
#25 = CC_DESIGN_APPROVAL ( #313, ( #285 ) ) ;
#26 = DATE_TIME_ROLE ( 'classification_date' ) ;
#27 = ADVANCED_FACE ( 'NONE', ( #45 ), #251, .F. ) ;
#28 = CIRCLE ( 'NONE', #67, 12.69999999999999929 ) ;
#29 = DIRECTION ( 'NONE',  ( -1.000000000000000000, 0.000000000000000000, -0.000000000000000000 ) ) ;
#30 = LINE ( 'NONE', #219, #133 ) ;
#31 = CARTESIAN_POINT ( 'NONE',  ( -0.5000000000000006661, 0.000000000000000000, 0.000000000000000000 ) ) ;
#32 = CARTESIAN_POINT ( 'NONE',  ( -1.614212418857619014, 0.000000000000000000, 10.00000000000000000 ) ) ;
#33 = CARTESIAN_POINT ( 'NONE',  ( -3.000000000000000000, 0.000000000000000000, 10.00000000000000000 ) ) ;
#34 = ORGANIZATION ( 'UNSPECIFIED', 'UNSPECIFIED', '' ) ;
#35 = LINE ( 'NONE', #32, #206 ) ;
#36 = DIRECTION ( 'NONE',  ( 0.000000000000000000, 0.000000000000000000, 1.000000000000000000 ) ) ;
#37 = VERTEX_POINT ( 'NONE', #117 ) ;
#38 = CARTESIAN_POINT ( 'NONE',  ( -0.5000000000000006661, 0.000000000000000000, 10.00000000000000000 ) ) ;
#39 = CIRCLE ( 'NONE', #186, 12.69999999999999929 ) ;
#40 = CALENDAR_DATE ( 2021, 5, 1 ) ;
#41 = VERTEX_POINT ( 'NONE', #222 ) ;
#42 = CYLINDRICAL_SURFACE ( 'NONE', #19, 12.69999999999999929 ) ;
#43 = PRODUCT_DEFINITION_SHAPE ( 'NONE', 'NONE',  #255 ) ;
#44 = VERTEX_POINT ( 'NONE', #38 ) ;
#45 = FACE_OUTER_BOUND ( 'NONE', #302, .T. ) ;
#46 = APPROVAL_DATE_TIME ( #278, #130 ) ;
#47 = ORIENTED_EDGE ( 'NONE', *, *, #199, .F. ) ;
#48 = AXIS2_PLACEMENT_3D ( 'NONE', #307, #324, #61 ) ;
#49 = EDGE_CURVE ( 'NONE', #124, #37, #103, .T. ) ;
#50 = PERSON_AND_ORGANIZATION ( #56, #34 ) ;
#51 = CIRCLE ( 'NONE', #107, 10.00000000000000000 ) ;
#52 = DIRECTION ( 'NONE',  ( -1.000000000000000000, -0.000000000000000000, -0.000000000000000000 ) ) ;
#53 = FACE_BOUND ( 'NONE', #271, .T. ) ;
#54 = APPROVAL_PERSON_ORGANIZATION ( #224, #309, #132 ) ;
#55 = CYLINDRICAL_SURFACE ( 'NONE', #211, 10.00000000000000000 ) ;
#56 = PERSON ( 'UNSPECIFIED', 'UNSPECIFIED', 'UNSPECIFIED', ('UNSPECIFIED'), ('UNSPECIFIED'), ('UNSPECIFIED') ) ;
#57 = AXIS2_PLACEMENT_3D ( 'NONE', #317, #5, #217 ) ;
#58 = LINE ( 'NONE', #163, #177 ) ;
#59 = ORIENTED_EDGE ( 'NONE', *, *, #99, .F. ) ;
#60 = FACE_OUTER_BOUND ( 'NONE', #323, .T. ) ;
#61 = DIRECTION ( 'NONE',  ( -0.000000000000000000, 0.000000000000000000, 1.000000000000000000 ) ) ;
#62 = CC_DESIGN_PERSON_AND_ORGANIZATION_ASSIGNMENT ( #50, #183, ( #223 ) ) ;
#63 = ORIENTED_EDGE ( 'NONE', *, *, #49, .F. ) ;
#64 = DIRECTION ( 'NONE',  ( 0.000000000000000000, 0.000000000000000000, 1.000000000000000000 ) ) ;
#65 = VERTEX_POINT ( 'NONE', #204 ) ;
#66 = DIRECTION ( 'NONE',  ( 0.000000000000000000, 0.000000000000000000, 1.000000000000000000 ) ) ;
#67 = AXIS2_PLACEMENT_3D ( 'NONE', #113, #164, #167 ) ;
#68 = DIRECTION ( 'NONE',  ( 0.000000000000000000, 0.000000000000000000, 1.000000000000000000 ) ) ;
#69 = ORIENTED_EDGE ( 'NONE', *, *, #137, .F. ) ;
#70 = CARTESIAN_POINT ( 'NONE',  ( -1.614212418857619014, 0.000000000000000000, 0.000000000000000000 ) ) ;
#71 = FACE_OUTER_BOUND ( 'NONE', #250, .T. ) ;
#72 = APPROVAL_STATUS ( 'not_yet_approved' ) ;
#73 = ORIENTED_EDGE ( 'NONE', *, *, #157, .T. ) ;
#74 = ADVANCED_FACE ( 'NONE', ( #304 ), #194, .F. ) ;
#75 = AXIS2_PLACEMENT_3D ( 'NONE', #148, #197, #193 ) ;
#76 = EDGE_CURVE ( 'NONE', #225, #196, #121, .T. ) ;
#77 = AXIS2_PLACEMENT_3D ( 'NONE', #272, #249, #15 ) ;
#78 = APPROVAL_DATE_TIME ( #312, #313 ) ;
#79 = DATE_AND_TIME ( #102, #325 ) ;
#80 = CC_DESIGN_APPROVAL ( #309, ( #223 ) ) ;
#81 = PLANE ( 'NONE',  #232 ) ;
#82 = AXIS2_PLACEMENT_3D ( 'NONE', #89, #185, #263 ) ;
#83 = MANIFOLD_SOLID_BREP ( 'Ðý×', #128 ) ;
#84 = DIRECTION ( 'NONE',  ( 1.000000000000000000, 0.000000000000000000, 0.000000000000000000 ) ) ;
#85 = DIRECTION ( 'NONE',  ( -1.000000000000000000, -0.000000000000000000, -0.000000000000000000 ) ) ;
#86 = LINE ( 'NONE', #188, #87 ) ;
#87 = VECTOR ( 'NONE', #290, 1000.000000000000000 ) ;
#88 = CARTESIAN_POINT ( 'NONE',  ( 0.5000000000000013323, 0.000000000000000000, 0.000000000000000000 ) ) ;
#89 = CARTESIAN_POINT ( 'NONE',  ( 2.999999999999999112, 0.000000000000000000, 0.000000000000000000 ) ) ;
#90 = VERTEX_POINT ( 'NONE', #328 ) ;
#91 = DIRECTION ( 'NONE',  ( -1.000000000000000000, -0.000000000000000000, -0.000000000000000000 ) ) ;
#92 = EDGE_LOOP ( 'NONE', ( #119, #247, #242, #298 ) ) ;
#93 = CARTESIAN_POINT ( 'NONE',  ( 3.000000000000000000, 0.000000000000000000, 0.000000000000000000 ) ) ;
#94 = VERTEX_POINT ( 'NONE', #140 ) ;
#95 = CARTESIAN_POINT ( 'NONE',  ( -1.614212418857619014, 0.000000000000000000, 0.000000000000000000 ) ) ;
#96 = ORIENTED_EDGE ( 'NONE', *, *, #49, .T. ) ;
#97 = ORIENTED_EDGE ( 'NONE', *, *, #209, .T. ) ;
#98 = EDGE_LOOP ( 'NONE', ( #69, #111, #143, #245 ) ) ;
#99 = EDGE_CURVE ( 'NONE', #41, #273, #39, .T. ) ;
#100 = LOCAL_TIME ( 10, 33, 27.00000000000000000, #169 ) ;
#101 = AXIS2_PLACEMENT_3D ( 'NONE', #70, #9, #295 ) ;
#102 = CALENDAR_DATE ( 2021, 5, 1 ) ;
#103 = CIRCLE ( 'NONE', #310, 10.00000000000000000 ) ;
#104 = EDGE_CURVE ( 'NONE', #147, #65, #23, .T. ) ;
#105 = SHAPE_DEFINITION_REPRESENTATION ( #43, #276 ) ;
#106 = CARTESIAN_POINT ( 'NONE',  ( -1.614212418857619014, 1.555301434917138433E-15, -12.69999999999999929 ) ) ;
#107 = AXIS2_PLACEMENT_3D ( 'NONE', #88, #243, #139 ) ;
#108 = ADVANCED_FACE ( 'NONE', ( #220 ), #42, .T. ) ;
#109 = CARTESIAN_POINT ( 'NONE',  ( -3.000000000000000000, 0.000000000000000000, 0.000000000000000000 ) ) ;
#110 = AXIS2_PLACEMENT_3D ( 'NONE', #95, #201, #268 ) ;
#111 = ORIENTED_EDGE ( 'NONE', *, *, #199, .T. ) ;
#112 = ADVANCED_FACE ( 'NONE', ( #71 ), #198, .T. ) ;
#113 = CARTESIAN_POINT ( 'NONE',  ( -3.000000000000000000, 0.000000000000000000, 0.000000000000000000 ) ) ;
#114 = DIRECTION ( 'NONE',  ( -1.000000000000000000, -0.000000000000000000, -0.000000000000000000 ) ) ;
#115 = EDGE_LOOP ( 'NONE', ( #202, #12, #203, #330 ) ) ;
#116 = CARTESIAN_POINT ( 'NONE',  ( -3.000000000000000000, 0.000000000000000000, 12.69999999999999929 ) ) ;
#117 = CARTESIAN_POINT ( 'NONE',  ( 2.999999999999999112, 1.224646799147353256E-15, -10.00000000000000000 ) ) ;
#118 = CALENDAR_DATE ( 2021, 5, 1 ) ;
#119 = ORIENTED_EDGE ( 'NONE', *, *, #157, .F. ) ;
#120 = APPLICATION_PROTOCOL_DEFINITION ( 'international standard', 'config_control_design', 1994, #3 ) ;
#121 = CIRCLE ( 'NONE', #301, 10.00000000000000000 ) ;
#122 = DIRECTION ( 'NONE',  ( 0.000000000000000000, 0.000000000000000000, 1.000000000000000000 ) ) ;
#123 = COORDINATED_UNIVERSAL_TIME_OFFSET ( 8, 0, .AHEAD. ) ;
#124 = VERTEX_POINT ( 'NONE', #142 ) ;
#125 = PERSON_AND_ORGANIZATION ( #56, #34 ) ;
#126 = EDGE_CURVE ( 'NONE', #94, #44, #11, .T. ) ;
#127 = UNCERTAINTY_MEASURE_WITH_UNIT (LENGTH_MEASURE( 1.000000000000000082E-05 ), #246, 'distance_accuracy_value', 'NONE');
#128 = CLOSED_SHELL ( 'NONE', ( #112, #27, #182, #74, #282, #334, #218, #108, #131, #284 ) ) ;
#129 = DATE_AND_TIME ( #258, #16 ) ;
#130 = APPROVAL ( #72, 'UNSPECIFIED' ) ;
#131 = ADVANCED_FACE ( 'NONE', ( #175, #275 ), #81, .F. ) ;
#132 = APPROVAL_ROLE ( '' ) ;
#133 = VECTOR ( 'NONE', #261, 1000.000000000000000 ) ;
#134 = DIRECTION ( 'NONE',  ( 0.000000000000000000, 0.000000000000000000, 1.000000000000000000 ) ) ;
#135 = CARTESIAN_POINT ( 'NONE',  ( -3.000000000000000000, 0.000000000000000000, 0.000000000000000000 ) ) ;
#136 = LINE ( 'NONE', #289, #332 ) ;
#137 = EDGE_CURVE ( 'NONE', #37, #124, #270, .T. ) ;
#138 = CC_DESIGN_SECURITY_CLASSIFICATION ( #285, ( #223 ) ) ;
#139 = DIRECTION ( 'NONE',  ( 0.000000000000000000, 0.000000000000000000, 1.000000000000000000 ) ) ;
#140 = CARTESIAN_POINT ( 'NONE',  ( -0.5000000000000006661, 1.224646799147353256E-15, -10.00000000000000000 ) ) ;
#141 = ORIENTED_EDGE ( 'NONE', *, *, #297, .T. ) ;
#142 = CARTESIAN_POINT ( 'NONE',  ( 2.999999999999999112, 0.000000000000000000, 10.00000000000000000 ) ) ;
#143 = ORIENTED_EDGE ( 'NONE', *, *, #104, .T. ) ;
#144 = DIRECTION ( 'NONE',  ( -1.000000000000000000, -0.000000000000000000, -0.000000000000000000 ) ) ;
#145 = DIRECTION ( 'NONE',  ( -1.000000000000000000, -0.000000000000000000, -0.000000000000000000 ) ) ;
#146 = DIRECTION ( 'NONE',  ( 1.000000000000000000, 0.000000000000000000, 0.000000000000000000 ) ) ;
#147 = VERTEX_POINT ( 'NONE', #159 ) ;
#148 = CARTESIAN_POINT ( 'NONE',  ( -0.5000000000000006661, 10.00000000000000000, 0.000000000000000000 ) ) ;
#149 = EDGE_LOOP ( 'NONE', ( #59, #173 ) ) ;
#150 = PERSON_AND_ORGANIZATION ( #56, #34 ) ;
#151 = ORIENTED_EDGE ( 'NONE', *, *, #180, .F. ) ;
#152 = CC_DESIGN_PERSON_AND_ORGANIZATION_ASSIGNMENT ( #212, #233, ( #223 ) ) ;
#153 = LOCAL_TIME ( 10, 33, 27.00000000000000000, #210 ) ;
#154 = CC_DESIGN_DATE_AND_TIME_ASSIGNMENT ( #79, #26, ( #285 ) ) ;
#155 = SECURITY_CLASSIFICATION_LEVEL ( 'unclassified' ) ;
#156 = APPROVAL_ROLE ( '' ) ;
#157 = EDGE_CURVE ( 'NONE', #273, #90, #316, .T. ) ;
#158 = DIRECTION ( 'NONE',  ( 0.000000000000000000, 0.000000000000000000, 1.000000000000000000 ) ) ;
#159 = CARTESIAN_POINT ( 'NONE',  ( 0.5000000000000013323, 1.224646799147353256E-15, -10.00000000000000000 ) ) ;
#160 = CC_DESIGN_APPROVAL ( #130, ( #255 ) ) ;
#161 = DIRECTION ( 'NONE',  ( 0.000000000000000000, 0.000000000000000000, -1.000000000000000000 ) ) ;
#162 = AXIS2_PLACEMENT_3D ( 'NONE', #244, #114, #10 ) ;
#163 = CARTESIAN_POINT ( 'NONE',  ( -1.614212418857619014, 0.000000000000000000, 10.00000000000000000 ) ) ;
#164 = DIRECTION ( 'NONE',  ( -1.000000000000000000, -0.000000000000000000, -0.000000000000000000 ) ) ;
#165 = CARTESIAN_POINT ( 'NONE',  ( -3.000000000000000000, 0.000000000000000000, 0.000000000000000000 ) ) ;
#166 = ORIENTED_EDGE ( 'NONE', *, *, #76, .F. ) ;
#167 = DIRECTION ( 'NONE',  ( 0.000000000000000000, 0.000000000000000000, 1.000000000000000000 ) ) ;
#168 = CARTESIAN_POINT ( 'NONE',  ( -1.614212418857619014, 0.000000000000000000, 0.000000000000000000 ) ) ;
#169 = COORDINATED_UNIVERSAL_TIME_OFFSET ( 8, 0, .AHEAD. ) ;
#170 = AXIS2_PLACEMENT_3D ( 'NONE', #135, #237, #238 ) ;
#171 = ORIENTED_EDGE ( 'NONE', *, *, #209, .F. ) ;
#172 = DIRECTION ( 'NONE',  ( 0.000000000000000000, 0.000000000000000000, 1.000000000000000000 ) ) ;
#173 = ORIENTED_EDGE ( 'NONE', *, *, #179, .F. ) ;
#174 = CARTESIAN_POINT ( 'NONE',  ( 3.000000000000000000, 1.555301434917138433E-15, -12.69999999999999929 ) ) ;
#175 = FACE_OUTER_BOUND ( 'NONE', #149, .T. ) ;
#176 = DIRECTION ( 'NONE',  ( 0.000000000000000000, 0.000000000000000000, 1.000000000000000000 ) ) ;
#177 = VECTOR ( 'NONE', #6, 1000.000000000000000 ) ;
#178 = CC_DESIGN_PERSON_AND_ORGANIZATION_ASSIGNMENT ( #305, #254, ( #7 ) ) ;
#179 = EDGE_CURVE ( 'NONE', #273, #41, #314, .T. ) ;
#180 = EDGE_CURVE ( 'NONE', #41, #300, #30, .T. ) ;
#181 = PERSON_AND_ORGANIZATION ( #56, #34 ) ;
#182 = ADVANCED_FACE ( 'NONE', ( #315 ), #55, .F. ) ;
#183 = PERSON_AND_ORGANIZATION_ROLE ( 'creator' ) ;
#184 =( GEOMETRIC_REPRESENTATION_CONTEXT ( 3 ) GLOBAL_UNCERTAINTY_ASSIGNED_CONTEXT ( ( #127 ) ) GLOBAL_UNIT_ASSIGNED_CONTEXT ( ( #246, #239, #299 ) ) REPRESENTATION_CONTEXT ( 'NONE', 'WORKASPACE' ) );
#185 = DIRECTION ( 'NONE',  ( -1.000000000000000000, -0.000000000000000000, -0.000000000000000000 ) ) ;
#186 = AXIS2_PLACEMENT_3D ( 'NONE', #93, #226, #172 ) ;
#187 = CARTESIAN_POINT ( 'NONE',  ( 3.000000000000000000, 0.000000000000000000, 0.000000000000000000 ) ) ;
#188 = CARTESIAN_POINT ( 'NONE',  ( -1.614212418857619014, 1.224646799147353256E-15, -10.00000000000000000 ) ) ;
#189 = AXIS2_PLACEMENT_3D ( 'NONE', #31, #84, #161 ) ;
#190 = ORIENTED_EDGE ( 'NONE', *, *, #266, .T. ) ;
#191 = DIRECTION ( 'NONE',  ( -1.000000000000000000, -0.000000000000000000, -0.000000000000000000 ) ) ;
#192 = EDGE_LOOP ( 'NONE', ( #190, #8 ) ) ;
#193 = DIRECTION ( 'NONE',  ( 0.000000000000000000, 0.000000000000000000, -1.000000000000000000 ) ) ;
#194 = PLANE ( 'NONE',  #48 ) ;
#195 = APPROVAL_PERSON_ORGANIZATION ( #181, #313, #156 ) ;
#196 = VERTEX_POINT ( 'NONE', #2 ) ;
#197 = DIRECTION ( 'NONE',  ( 1.000000000000000000, 0.000000000000000000, 0.000000000000000000 ) ) ;
#198 = CYLINDRICAL_SURFACE ( 'NONE', #260, 12.69999999999999929 ) ;
#199 = EDGE_CURVE ( 'NONE', #37, #147, #136, .T. ) ;
#200 = ORIENTED_EDGE ( 'NONE', *, *, #266, .F. ) ;
#201 = DIRECTION ( 'NONE',  ( -1.000000000000000000, -0.000000000000000000, -0.000000000000000000 ) ) ;
#202 = ORIENTED_EDGE ( 'NONE', *, *, #257, .F. ) ;
#203 = ORIENTED_EDGE ( 'NONE', *, *, #262, .T. ) ;
#204 = CARTESIAN_POINT ( 'NONE',  ( 0.5000000000000013323, 0.000000000000000000, 10.00000000000000000 ) ) ;
#205 = DATE_TIME_ROLE ( 'creation_date' ) ;
#206 = VECTOR ( 'NONE', #144, 1000.000000000000000 ) ;
#207 = APPLICATION_CONTEXT ( 'configuration controlled 3d designs of mechanical parts and assemblies' ) ;
#208 = CC_DESIGN_PERSON_AND_ORGANIZATION_ASSIGNMENT ( #259, #333, ( #285 ) ) ;
#209 = EDGE_CURVE ( 'NONE', #44, #94, #235, .T. ) ;
#210 = COORDINATED_UNIVERSAL_TIME_OFFSET ( 8, 0, .AHEAD. ) ;
#211 = AXIS2_PLACEMENT_3D ( 'NONE', #240, #52, #134 ) ;
#212 = PERSON_AND_ORGANIZATION ( #56, #34 ) ;
#213 = EDGE_CURVE ( 'NONE', #196, #225, #308, .T. ) ;
#214 = DIRECTION ( 'NONE',  ( -0.000000000000000000, 0.000000000000000000, 1.000000000000000000 ) ) ;
#215 = AXIS2_PLACEMENT_3D ( 'NONE', #187, #191, #158 ) ;
#216 = CC_DESIGN_DATE_AND_TIME_ASSIGNMENT ( #331, #205, ( #255 ) ) ;
#217 = DIRECTION ( 'NONE',  ( 0.000000000000000000, 0.000000000000000000, -1.000000000000000000 ) ) ;
#218 = ADVANCED_FACE ( 'NONE', ( #53, #288 ), #4, .F. ) ;
#219 = CARTESIAN_POINT ( 'NONE',  ( -1.614212418857619014, 0.000000000000000000, 12.69999999999999929 ) ) ;
#220 = FACE_OUTER_BOUND ( 'NONE', #92, .T. ) ;
#221 = EDGE_LOOP ( 'NONE', ( #21, #17 ) ) ;
#222 = CARTESIAN_POINT ( 'NONE',  ( 3.000000000000000000, 0.000000000000000000, 12.69999999999999929 ) ) ;
#223 = PRODUCT_DEFINITION_FORMATION_WITH_SPECIFIED_SOURCE ( 'ANY', '', #7, .NOT_KNOWN. ) ;
#224 = PERSON_AND_ORGANIZATION ( #56, #34 ) ;
#225 = VERTEX_POINT ( 'NONE', #33 ) ;
#226 = DIRECTION ( 'NONE',  ( -1.000000000000000000, -0.000000000000000000, -0.000000000000000000 ) ) ;
#227 = ORIENTED_EDGE ( 'NONE', *, *, #126, .F. ) ;
#228 = DIRECTION ( 'NONE',  ( -1.000000000000000000, -0.000000000000000000, -0.000000000000000000 ) ) ;
#229 = EDGE_LOOP ( 'NONE', ( #96, #14 ) ) ;
#230 = APPROVAL_ROLE ( '' ) ;
#231 = APPROVAL_PERSON_ORGANIZATION ( #125, #130, #230 ) ;
#232 = AXIS2_PLACEMENT_3D ( 'NONE', #236, #29, #214 ) ;
#233 = PERSON_AND_ORGANIZATION_ROLE ( 'design_supplier' ) ;
#234 = COORDINATED_UNIVERSAL_TIME_OFFSET ( 8, 0, .AHEAD. ) ;
#235 = CIRCLE ( 'NONE', #189, 10.00000000000000000 ) ;
#236 = CARTESIAN_POINT ( 'NONE',  ( 2.999999999999999556, 12.69999999999999929, 0.000000000000000000 ) ) ;
#237 = DIRECTION ( 'NONE',  ( -1.000000000000000000, -0.000000000000000000, -0.000000000000000000 ) ) ;
#238 = DIRECTION ( 'NONE',  ( 0.000000000000000000, 0.000000000000000000, 1.000000000000000000 ) ) ;
#239 =( NAMED_UNIT ( * ) PLANE_ANGLE_UNIT ( ) SI_UNIT ( $, .RADIAN. ) );
#240 = CARTESIAN_POINT ( 'NONE',  ( -1.614212418857619014, 0.000000000000000000, 0.000000000000000000 ) ) ;
#241 = AXIS2_PLACEMENT_3D ( 'NONE', #281, #68, #146 ) ;
#242 = ORIENTED_EDGE ( 'NONE', *, *, #180, .T. ) ;
#243 = DIRECTION ( 'NONE',  ( -1.000000000000000000, -0.000000000000000000, -0.000000000000000000 ) ) ;
#244 = CARTESIAN_POINT ( 'NONE',  ( 0.5000000000000013323, 0.000000000000000000, 0.000000000000000000 ) ) ;
#245 = ORIENTED_EDGE ( 'NONE', *, *, #286, .F. ) ;
#246 =( LENGTH_UNIT ( ) NAMED_UNIT ( * ) SI_UNIT ( .MILLI., .METRE. ) );
#247 = ORIENTED_EDGE ( 'NONE', *, *, #179, .T. ) ;
#248 = PLANE ( 'NONE',  #75 ) ;
#249 = DIRECTION ( 'NONE',  ( 1.000000000000000000, 0.000000000000000000, 0.000000000000000000 ) ) ;
#250 = EDGE_LOOP ( 'NONE', ( #267, #73, #200, #151 ) ) ;
#251 = CYLINDRICAL_SURFACE ( 'NONE', #291, 10.00000000000000000 ) ;
#252 = AXIS2_PLACEMENT_3D ( 'NONE', #109, #91, #292 ) ;
#253 = ORIENTED_EDGE ( 'NONE', *, *, #262, .F. ) ;
#254 = PERSON_AND_ORGANIZATION_ROLE ( 'design_owner' ) ;
#255 = PRODUCT_DEFINITION ( 'UNKNOWN', '', #223, #1 ) ;
#256 = VECTOR ( 'NONE', #319, 1000.000000000000000 ) ;
#257 = EDGE_CURVE ( 'NONE', #94, #196, #86, .T. ) ;
#258 = CALENDAR_DATE ( 2021, 5, 1 ) ;
#259 = PERSON_AND_ORGANIZATION ( #56, #34 ) ;
#260 = AXIS2_PLACEMENT_3D ( 'NONE', #168, #145, #66 ) ;
#261 = DIRECTION ( 'NONE',  ( -1.000000000000000000, -0.000000000000000000, -0.000000000000000000 ) ) ;
#262 = EDGE_CURVE ( 'NONE', #44, #225, #58, .T. ) ;
#263 = DIRECTION ( 'NONE',  ( 0.000000000000000000, 0.000000000000000000, 1.000000000000000000 ) ) ;
#264 = DIRECTION ( 'NONE',  ( -1.000000000000000000, -0.000000000000000000, -0.000000000000000000 ) ) ;
#265 = PRODUCT_RELATED_PRODUCT_CATEGORY ( 'detail', '', ( #7 ) ) ;
#266 = EDGE_CURVE ( 'NONE', #300, #90, #320, .T. ) ;
#267 = ORIENTED_EDGE ( 'NONE', *, *, #99, .T. ) ;
#268 = DIRECTION ( 'NONE',  ( 0.000000000000000000, 0.000000000000000000, 1.000000000000000000 ) ) ;
#269 = DIRECTION ( 'NONE',  ( -1.000000000000000000, -0.000000000000000000, -0.000000000000000000 ) ) ;
#270 = CIRCLE ( 'NONE', #82, 10.00000000000000000 ) ;
#271 = EDGE_LOOP ( 'NONE', ( #166, #279 ) ) ;
#272 = CARTESIAN_POINT ( 'NONE',  ( -0.5000000000000006661, 0.000000000000000000, 0.000000000000000000 ) ) ;
#273 = VERTEX_POINT ( 'NONE', #174 ) ;
#274 = FACE_OUTER_BOUND ( 'NONE', #115, .T. ) ;
#275 = FACE_BOUND ( 'NONE', #229, .T. ) ;
#276 = ADVANCED_BREP_SHAPE_REPRESENTATION ( 'QM-AAHWP-20-450-650-M', ( #83, #241 ), #184 ) ;
#277 = LOCAL_TIME ( 10, 33, 27.00000000000000000, #123 ) ;
#278 = DATE_AND_TIME ( #40, #100 ) ;
#279 = ORIENTED_EDGE ( 'NONE', *, *, #213, .F. ) ;
#280 = EDGE_CURVE ( 'NONE', #90, #300, #28, .T. ) ;
#281 = CARTESIAN_POINT ( 'NONE',  ( 0.000000000000000000, 0.000000000000000000, 0.000000000000000000 ) ) ;
#282 = ADVANCED_FACE ( 'NONE', ( #327 ), #318, .F. ) ;
#283 = APPROVAL_DATE_TIME ( #129, #309 ) ;
#284 = ADVANCED_FACE ( 'NONE', ( #60 ), #248, .F. ) ;
#285 = SECURITY_CLASSIFICATION ( '', '', #155 ) ;
#286 = EDGE_CURVE ( 'NONE', #124, #65, #35, .T. ) ;
#287 = CC_DESIGN_PERSON_AND_ORGANIZATION_ASSIGNMENT ( #150, #13, ( #255 ) ) ;
#288 = FACE_OUTER_BOUND ( 'NONE', #192, .T. ) ;
#289 = CARTESIAN_POINT ( 'NONE',  ( -1.614212418857619014, 1.224646799147353256E-15, -10.00000000000000000 ) ) ;
#290 = DIRECTION ( 'NONE',  ( -1.000000000000000000, -0.000000000000000000, -0.000000000000000000 ) ) ;
#291 = AXIS2_PLACEMENT_3D ( 'NONE', #18, #269, #122 ) ;
#292 = DIRECTION ( 'NONE',  ( 0.000000000000000000, 0.000000000000000000, 1.000000000000000000 ) ) ;
#293 = CARTESIAN_POINT ( 'NONE',  ( 2.999999999999999112, 0.000000000000000000, 0.000000000000000000 ) ) ;
#294 = APPROVAL_STATUS ( 'not_yet_approved' ) ;
#295 = DIRECTION ( 'NONE',  ( 0.000000000000000000, 0.000000000000000000, 1.000000000000000000 ) ) ;
#296 = DIRECTION ( 'NONE',  ( -1.000000000000000000, -0.000000000000000000, -0.000000000000000000 ) ) ;
#297 = EDGE_CURVE ( 'NONE', #65, #147, #51, .T. ) ;
#298 = ORIENTED_EDGE ( 'NONE', *, *, #280, .F. ) ;
#299 =( NAMED_UNIT ( * ) SI_UNIT ( $, .STERADIAN. ) SOLID_ANGLE_UNIT ( ) );
#300 = VERTEX_POINT ( 'NONE', #116 ) ;
#301 = AXIS2_PLACEMENT_3D ( 'NONE', #165, #264, #36 ) ;
#302 = EDGE_LOOP ( 'NONE', ( #97, #326, #321, #253 ) ) ;
#303 = CYLINDRICAL_SURFACE ( 'NONE', #101, 10.00000000000000000 ) ;
#304 = FACE_OUTER_BOUND ( 'NONE', #221, .T. ) ;
#305 = PERSON_AND_ORGANIZATION ( #56, #34 ) ;
#306 = EDGE_LOOP ( 'NONE', ( #47, #63, #329, #141 ) ) ;
#307 = CARTESIAN_POINT ( 'NONE',  ( 0.5000000000000006661, 10.00000000000000000, 0.000000000000000000 ) ) ;
#308 = CIRCLE ( 'NONE', #170, 10.00000000000000000 ) ;
#309 = APPROVAL ( #294, 'UNSPECIFIED' ) ;
#310 = AXIS2_PLACEMENT_3D ( 'NONE', #293, #228, #176 ) ;
#311 = CALENDAR_DATE ( 2021, 5, 1 ) ;
#312 = DATE_AND_TIME ( #311, #153 ) ;
#313 = APPROVAL ( #335, 'UNSPECIFIED' ) ;
#314 = CIRCLE ( 'NONE', #215, 12.69999999999999929 ) ;
#315 = FACE_OUTER_BOUND ( 'NONE', #98, .T. ) ;
#316 = LINE ( 'NONE', #106, #256 ) ;
#317 = CARTESIAN_POINT ( 'NONE',  ( -3.000000000000000000, 10.00000000000000000, 0.000000000000000000 ) ) ;
#318 = CYLINDRICAL_SURFACE ( 'NONE', #110, 10.00000000000000000 ) ;
#319 = DIRECTION ( 'NONE',  ( -1.000000000000000000, -0.000000000000000000, -0.000000000000000000 ) ) ;
#320 = CIRCLE ( 'NONE', #252, 12.69999999999999929 ) ;
#321 = ORIENTED_EDGE ( 'NONE', *, *, #213, .T. ) ;
#322 = CARTESIAN_POINT ( 'NONE',  ( -1.614212418857619014, 0.000000000000000000, 0.000000000000000000 ) ) ;
#323 = EDGE_LOOP ( 'NONE', ( #171, #227 ) ) ;
#324 = DIRECTION ( 'NONE',  ( -1.000000000000000000, 0.000000000000000000, -0.000000000000000000 ) ) ;
#325 = LOCAL_TIME ( 10, 33, 27.00000000000000000, #234 ) ;
#326 = ORIENTED_EDGE ( 'NONE', *, *, #257, .T. ) ;
#327 = FACE_OUTER_BOUND ( 'NONE', #306, .T. ) ;
#328 = CARTESIAN_POINT ( 'NONE',  ( -3.000000000000000000, 1.555301434917138433E-15, -12.69999999999999929 ) ) ;
#329 = ORIENTED_EDGE ( 'NONE', *, *, #286, .T. ) ;
#330 = ORIENTED_EDGE ( 'NONE', *, *, #76, .T. ) ;
#331 = DATE_AND_TIME ( #118, #277 ) ;
#332 = VECTOR ( 'NONE', #85, 1000.000000000000000 ) ;
#333 = PERSON_AND_ORGANIZATION_ROLE ( 'classification_officer' ) ;
#334 = ADVANCED_FACE ( 'NONE', ( #274 ), #303, .F. ) ;
#335 = APPROVAL_STATUS ( 'not_yet_approved' ) ;
ENDSEC;
END-ISO-10303-21;
